Search This Blog

Wednesday, May 18, 2011

Fall For You Tab and plucking

plucking:
E-------8~----------------------------------------13~-------|
B------10~----------------------------------------13~-------|
G-------x------------------------------------------x--------|
D------10~----------------------------------------15~-------|
A-----------------------------------------------------------|
E-----------------------------------------------------------|
   The best thing about tonight’s that we’re not fighting

E---------------12~-----------------------------10~---------|
B---------------13~-----------------------------12~---------|
G----------------x-------------------------------x----------|
D---------------14~-----------------------------12~---------|
A-----------------------------------------------------------|
E-----------------------------------------------------------|
    It couldn’t be that we have been this way before

E-----15~-----------------------------13~-------------------|
B-12--13~-----------------------------13~-------------------|
G------x-------------------------------x--------------------|
D-----10~-----------------------------15~-------------------|
A-----------------------------------------------------------|
E-----------------------------------------------------------|
    I know you don’t think that I am trying

E-----12~-----------------------------------10~-------------|
B-----13~-----------------------------------12~-------------|
G------x-------------------------------------x--------------|
D-----14~-----------------------------------12~-------------|
A-----------------------------------------------------------|
E-----------------------------------------------------------|
    I know you’re wearing thin down to the core

but hold your breath... etc..


you impossible to find...

then: (piano solo)
E-----15~-|-----13~----------13-15--|-12~----------12-13-|--10~-----|
B-----13~-|-----13~-----------------|-13~----------------|--12~-----|
G---------|------x------------------|--x-----13----------|---x------|
D--10~----|-----15~-15----15--------|-14~-14----14-------|--12~-----|
A---------|-15---------15-----------|--------------------|----------|
E---------|-------------------------|--------------------|----------|

then:
This is not what I intended...

No comments:

Post a Comment